ISO-10303-21;
HEADER;
/* Generated by software containing ST-Developer
 * from STEP Tools, Inc. (www.steptools.com) 
 */

FILE_DESCRIPTION(
/* description */ (''),
/* implementation_level */ '2;1');

FILE_NAME(
/* name */ 'Y:/FabAcademy2017/WebPageTest/Files/week2/Finger.step',
/* time_stamp */ '2017-10-18T17:51:54-05:00',
/* author */ (''),
/* organization */ (''),
/* preprocessor_version */ 'ST-DEVELOPER v16.13',
/* originating_system */ 'Autodesk Translation Framework v6.5.0.72',
/* authorisation */ '');

FILE_SCHEMA (('AUTOMOTIVE_DESIGN { 1 0 10303 214 3 1 1 }'));
ENDSEC;

DATA;
#10=MECHANICAL_DESIGN_GEOMETRIC_PRESENTATION_REPRESENTATION('',(#13),#321);
#11=SHAPE_REPRESENTATION_RELATIONSHIP('SRR','None',#328,#12);
#12=ADVANCED_BREP_SHAPE_REPRESENTATION('',(#14),#320);
#13=STYLED_ITEM('',(#337),#14);
#14=MANIFOLD_SOLID_BREP('Body1',#185);
#15=CYLINDRICAL_SURFACE('',#203,5.);
#16=CYLINDRICAL_SURFACE('',#209,5.);
#17=CYLINDRICAL_SURFACE('',#211,5.);
#18=FACE_OUTER_BOUND('',#28,.T.);
#19=FACE_OUTER_BOUND('',#29,.T.);
#20=FACE_OUTER_BOUND('',#30,.T.);
#21=FACE_OUTER_BOUND('',#31,.T.);
#22=FACE_OUTER_BOUND('',#32,.T.);
#23=FACE_OUTER_BOUND('',#33,.T.);
#24=FACE_OUTER_BOUND('',#34,.T.);
#25=FACE_OUTER_BOUND('',#35,.T.);
#26=FACE_OUTER_BOUND('',#36,.T.);
#27=FACE_OUTER_BOUND('',#37,.T.);
#28=EDGE_LOOP('',(#120,#121,#122,#123,#124,#125,#126,#127));
#29=EDGE_LOOP('',(#128,#129,#130,#131));
#30=EDGE_LOOP('',(#132,#133,#134,#135));
#31=EDGE_LOOP('',(#136,#137,#138,#139,#140,#141,#142,#143));
#32=EDGE_LOOP('',(#144,#145,#146,#147));
#33=EDGE_LOOP('',(#148,#149,#150,#151));
#34=EDGE_LOOP('',(#152,#153,#154,#155));
#35=EDGE_LOOP('',(#156,#157,#158,#159));
#36=EDGE_LOOP('',(#160,#161,#162,#163));
#37=EDGE_LOOP('',(#164,#165,#166,#167));
#38=LINE('',#273,#56);
#39=LINE('',#275,#57);
#40=LINE('',#279,#58);
#41=LINE('',#283,#59);
#42=LINE('',#284,#60);
#43=LINE('',#287,#61);
#44=LINE('',#290,#62);
#45=LINE('',#293,#63);
#46=LINE('',#294,#64);
#47=LINE('',#297,#65);
#48=LINE('',#299,#66);
#49=LINE('',#303,#67);
#50=LINE('',#306,#68);
#51=LINE('',#308,#69);
#52=LINE('',#309,#70);
#53=LINE('',#311,#71);
#54=LINE('',#313,#72);
#55=LINE('',#315,#73);
#56=VECTOR('',#221,10.);
#57=VECTOR('',#222,10.);
#58=VECTOR('',#225,10.);
#59=VECTOR('',#228,10.);
#60=VECTOR('',#229,10.);
#61=VECTOR('',#232,10.);
#62=VECTOR('',#235,10.);
#63=VECTOR('',#238,10.);
#64=VECTOR('',#239,10.);
#65=VECTOR('',#242,10.);
#66=VECTOR('',#243,10.);
#67=VECTOR('',#246,10.);
#68=VECTOR('',#249,10.);
#69=VECTOR('',#252,10.);
#70=VECTOR('',#253,10.);
#71=VECTOR('',#256,10.);
#72=VECTOR('',#259,10.);
#73=VECTOR('',#262,10.);
#74=CIRCLE('',#200,5.);
#75=CIRCLE('',#201,5.);
#76=CIRCLE('',#202,5.);
#77=CIRCLE('',#204,5.);
#78=CIRCLE('',#207,5.);
#79=CIRCLE('',#208,5.);
#80=VERTEX_POINT('',#269);
#81=VERTEX_POINT('',#270);
#82=VERTEX_POINT('',#272);
#83=VERTEX_POINT('',#274);
#84=VERTEX_POINT('',#276);
#85=VERTEX_POINT('',#278);
#86=VERTEX_POINT('',#280);
#87=VERTEX_POINT('',#282);
#88=VERTEX_POINT('',#286);
#89=VERTEX_POINT('',#288);
#90=VERTEX_POINT('',#292);
#91=VERTEX_POINT('',#296);
#92=VERTEX_POINT('',#298);
#93=VERTEX_POINT('',#300);
#94=VERTEX_POINT('',#302);
#95=VERTEX_POINT('',#304);
#96=EDGE_CURVE('',#80,#81,#74,.T.);
#97=EDGE_CURVE('',#80,#82,#38,.T.);
#98=EDGE_CURVE('',#82,#83,#39,.T.);
#99=EDGE_CURVE('',#84,#83,#75,.T.);
#100=EDGE_CURVE('',#85,#84,#40,.T.);
#101=EDGE_CURVE('',#86,#85,#76,.T.);
#102=EDGE_CURVE('',#87,#86,#41,.T.);
#103=EDGE_CURVE('',#87,#81,#42,.T.);
#104=EDGE_CURVE('',#81,#88,#43,.T.);
#105=EDGE_CURVE('',#88,#89,#77,.T.);
#106=EDGE_CURVE('',#89,#80,#44,.T.);
#107=EDGE_CURVE('',#89,#90,#45,.T.);
#108=EDGE_CURVE('',#82,#90,#46,.T.);
#109=EDGE_CURVE('',#88,#91,#47,.T.);
#110=EDGE_CURVE('',#91,#92,#48,.T.);
#111=EDGE_CURVE('',#93,#92,#78,.T.);
#112=EDGE_CURVE('',#94,#93,#49,.T.);
#113=EDGE_CURVE('',#95,#94,#79,.T.);
#114=EDGE_CURVE('',#90,#95,#50,.T.);
#115=EDGE_CURVE('',#85,#93,#51,.T.);
#116=EDGE_CURVE('',#92,#86,#52,.T.);
#117=EDGE_CURVE('',#94,#84,#53,.T.);
#118=EDGE_CURVE('',#83,#95,#54,.T.);
#119=EDGE_CURVE('',#91,#87,#55,.T.);
#120=ORIENTED_EDGE('',*,*,#96,.F.);
#121=ORIENTED_EDGE('',*,*,#97,.T.);
#122=ORIENTED_EDGE('',*,*,#98,.T.);
#123=ORIENTED_EDGE('',*,*,#99,.F.);
#124=ORIENTED_EDGE('',*,*,#100,.F.);
#125=ORIENTED_EDGE('',*,*,#101,.F.);
#126=ORIENTED_EDGE('',*,*,#102,.F.);
#127=ORIENTED_EDGE('',*,*,#103,.T.);
#128=ORIENTED_EDGE('',*,*,#96,.T.);
#129=ORIENTED_EDGE('',*,*,#104,.T.);
#130=ORIENTED_EDGE('',*,*,#105,.T.);
#131=ORIENTED_EDGE('',*,*,#106,.T.);
#132=ORIENTED_EDGE('',*,*,#106,.F.);
#133=ORIENTED_EDGE('',*,*,#107,.T.);
#134=ORIENTED_EDGE('',*,*,#108,.F.);
#135=ORIENTED_EDGE('',*,*,#97,.F.);
#136=ORIENTED_EDGE('',*,*,#105,.F.);
#137=ORIENTED_EDGE('',*,*,#109,.T.);
#138=ORIENTED_EDGE('',*,*,#110,.T.);
#139=ORIENTED_EDGE('',*,*,#111,.F.);
#140=ORIENTED_EDGE('',*,*,#112,.F.);
#141=ORIENTED_EDGE('',*,*,#113,.F.);
#142=ORIENTED_EDGE('',*,*,#114,.F.);
#143=ORIENTED_EDGE('',*,*,#107,.F.);
#144=ORIENTED_EDGE('',*,*,#101,.T.);
#145=ORIENTED_EDGE('',*,*,#115,.T.);
#146=ORIENTED_EDGE('',*,*,#111,.T.);
#147=ORIENTED_EDGE('',*,*,#116,.T.);
#148=ORIENTED_EDGE('',*,*,#115,.F.);
#149=ORIENTED_EDGE('',*,*,#100,.T.);
#150=ORIENTED_EDGE('',*,*,#117,.F.);
#151=ORIENTED_EDGE('',*,*,#112,.T.);
#152=ORIENTED_EDGE('',*,*,#113,.T.);
#153=ORIENTED_EDGE('',*,*,#117,.T.);
#154=ORIENTED_EDGE('',*,*,#99,.T.);
#155=ORIENTED_EDGE('',*,*,#118,.T.);
#156=ORIENTED_EDGE('',*,*,#116,.F.);
#157=ORIENTED_EDGE('',*,*,#110,.F.);
#158=ORIENTED_EDGE('',*,*,#119,.T.);
#159=ORIENTED_EDGE('',*,*,#102,.T.);
#160=ORIENTED_EDGE('',*,*,#118,.F.);
#161=ORIENTED_EDGE('',*,*,#98,.F.);
#162=ORIENTED_EDGE('',*,*,#108,.T.);
#163=ORIENTED_EDGE('',*,*,#114,.T.);
#164=ORIENTED_EDGE('',*,*,#104,.F.);
#165=ORIENTED_EDGE('',*,*,#103,.F.);
#166=ORIENTED_EDGE('',*,*,#119,.F.);
#167=ORIENTED_EDGE('',*,*,#109,.F.);
#168=PLANE('',#199);
#169=PLANE('',#205);
#170=PLANE('',#206);
#171=PLANE('',#210);
#172=PLANE('',#212);
#173=PLANE('',#213);
#174=PLANE('',#214);
#175=ADVANCED_FACE('',(#18),#168,.T.);
#176=ADVANCED_FACE('',(#19),#15,.T.);
#177=ADVANCED_FACE('',(#20),#169,.T.);
#178=ADVANCED_FACE('',(#21),#170,.T.);
#179=ADVANCED_FACE('',(#22),#16,.T.);
#180=ADVANCED_FACE('',(#23),#171,.T.);
#181=ADVANCED_FACE('',(#24),#17,.T.);
#182=ADVANCED_FACE('',(#25),#172,.T.);
#183=ADVANCED_FACE('',(#26),#173,.T.);
#184=ADVANCED_FACE('',(#27),#174,.T.);
#185=CLOSED_SHELL('',(#175,#176,#177,#178,#179,#180,#181,#182,#183,#184));
#186=DERIVED_UNIT_ELEMENT(#188,1.);
#187=DERIVED_UNIT_ELEMENT(#323,3.);
#188=(
MASS_UNIT()
NAMED_UNIT(*)
SI_UNIT(.KILO.,.GRAM.)
);
#189=DERIVED_UNIT((#186,#187));
#190=MEASURE_REPRESENTATION_ITEM('density measure',
POSITIVE_RATIO_MEASURE(7850.),#189);
#191=PROPERTY_DEFINITION_REPRESENTATION(#196,#193);
#192=PROPERTY_DEFINITION_REPRESENTATION(#197,#194);
#193=REPRESENTATION('material name',(#195),#320);
#194=REPRESENTATION('density',(#190),#320);
#195=DESCRIPTIVE_REPRESENTATION_ITEM('Steel','Steel');
#196=PROPERTY_DEFINITION('material property','material name',#330);
#197=PROPERTY_DEFINITION('material property','density of part',#330);
#198=AXIS2_PLACEMENT_3D('placement',#267,#215,#216);
#199=AXIS2_PLACEMENT_3D('',#268,#217,#218);
#200=AXIS2_PLACEMENT_3D('',#271,#219,#220);
#201=AXIS2_PLACEMENT_3D('',#277,#223,#224);
#202=AXIS2_PLACEMENT_3D('',#281,#226,#227);
#203=AXIS2_PLACEMENT_3D('',#285,#230,#231);
#204=AXIS2_PLACEMENT_3D('',#289,#233,#234);
#205=AXIS2_PLACEMENT_3D('',#291,#236,#237);
#206=AXIS2_PLACEMENT_3D('',#295,#240,#241);
#207=AXIS2_PLACEMENT_3D('',#301,#244,#245);
#208=AXIS2_PLACEMENT_3D('',#305,#247,#248);
#209=AXIS2_PLACEMENT_3D('',#307,#250,#251);
#210=AXIS2_PLACEMENT_3D('',#310,#254,#255);
#211=AXIS2_PLACEMENT_3D('',#312,#257,#258);
#212=AXIS2_PLACEMENT_3D('',#314,#260,#261);
#213=AXIS2_PLACEMENT_3D('',#316,#263,#264);
#214=AXIS2_PLACEMENT_3D('',#317,#265,#266);
#215=DIRECTION('axis',(0.,0.,1.));
#216=DIRECTION('refdir',(1.,0.,0.));
#217=DIRECTION('center_axis',(1.,0.,0.));
#218=DIRECTION('ref_axis',(0.,0.,-1.));
#219=DIRECTION('center_axis',(-1.,0.,0.));
#220=DIRECTION('ref_axis',(0.,-0.707106781186548,-0.707106781186547));
#221=DIRECTION('',(0.,2.77555756156289E-16,1.));
#222=DIRECTION('',(0.,-0.342020143325669,0.939692620785908));
#223=DIRECTION('center_axis',(-1.,0.,0.));
#224=DIRECTION('ref_axis',(0.,0.422618261740699,0.90630778703665));
#225=DIRECTION('',(0.,0.939692620785908,0.342020143325669));
#226=DIRECTION('center_axis',(-1.,0.,0.));
#227=DIRECTION('ref_axis',(-7.85046229341888E-17,-0.90630778703665,0.422618261740699));
#228=DIRECTION('',(0.,-0.342020143325669,0.939692620785908));
#229=DIRECTION('',(0.,-4.71844785465692E-16,-1.));
#230=DIRECTION('center_axis',(1.,0.,0.));
#231=DIRECTION('ref_axis',(0.,0.707106781186547,-0.707106781186548));
#232=DIRECTION('',(-1.,0.,0.));
#233=DIRECTION('center_axis',(1.,0.,0.));
#234=DIRECTION('ref_axis',(0.,-0.707106781186548,-0.707106781186547));
#235=DIRECTION('',(1.,0.,0.));
#236=DIRECTION('center_axis',(0.,1.,-2.77555756156289E-16));
#237=DIRECTION('ref_axis',(0.,2.77555756156289E-16,1.));
#238=DIRECTION('',(0.,3.54701456557296E-16,1.));
#239=DIRECTION('',(-1.,0.,0.));
#240=DIRECTION('center_axis',(-1.,0.,0.));
#241=DIRECTION('ref_axis',(0.,0.,1.));
#242=DIRECTION('',(0.,4.71844785465692E-16,1.));
#243=DIRECTION('',(0.,-0.342020143325669,0.939692620785908));
#244=DIRECTION('center_axis',(1.,0.,0.));
#245=DIRECTION('ref_axis',(-7.85046229341888E-17,-0.90630778703665,0.422618261740699));
#246=DIRECTION('',(0.,-0.939692620785908,-0.342020143325669));
#247=DIRECTION('center_axis',(1.,0.,0.));
#248=DIRECTION('ref_axis',(0.,0.422618261740699,0.90630778703665));
#249=DIRECTION('',(0.,-0.342020143325669,0.939692620785908));
#250=DIRECTION('center_axis',(1.,-1.73878063944479E-16,-6.32864396676256E-17));
#251=DIRECTION('ref_axis',(-7.85046229341888E-17,-0.90630778703665,0.422618261740699));
#252=DIRECTION('',(-1.,1.73878063944479E-16,6.32864396676256E-17));
#253=DIRECTION('',(1.,-1.73878063944479E-16,-6.32864396676256E-17));
#254=DIRECTION('center_axis',(0.,-0.342020143325669,0.939692620785908));
#255=DIRECTION('ref_axis',(1.,0.,0.));
#256=DIRECTION('',(1.,0.,0.));
#257=DIRECTION('center_axis',(-1.,0.,0.));
#258=DIRECTION('ref_axis',(0.,0.422618261740699,0.90630778703665));
#259=DIRECTION('',(-1.,0.,0.));
#260=DIRECTION('center_axis',(-1.85037170770859E-16,-0.939692620785908,
-0.342020143325669));
#261=DIRECTION('ref_axis',(1.,-1.73878063944479E-16,-6.32864396676256E-17));
#262=DIRECTION('',(1.,0.,0.));
#263=DIRECTION('center_axis',(0.,0.939692620785908,0.342020143325669));
#264=DIRECTION('ref_axis',(-1.,0.,0.));
#265=DIRECTION('center_axis',(0.,-1.,4.71844785465692E-16));
#266=DIRECTION('ref_axis',(0.,-4.71844785465692E-16,-1.));
#267=CARTESIAN_POINT('',(0.,0.,0.));
#268=CARTESIAN_POINT('Origin',(4.5,-1.11022302462516E-15,-2.22044604925031E-15));
#269=CARTESIAN_POINT('',(4.5,5.,-5.));
#270=CARTESIAN_POINT('',(4.5,-5.,-5.));
#271=CARTESIAN_POINT('Origin',(4.5,-3.05311331771918E-15,-5.));
#272=CARTESIAN_POINT('',(4.5,5.,13.639702342662));
#273=CARTESIAN_POINT('',(4.5,5.,-10.));
#274=CARTESIAN_POINT('',(4.5,1.57979856674331,23.0366285505211));
#275=CARTESIAN_POINT('',(4.5,5.00000000000001,13.639702342662));
#276=CARTESIAN_POINT('',(4.5,-4.82876525381457,26.0249909378223));
#277=CARTESIAN_POINT('Origin',(4.5,-3.11866453718623,21.3265278338928));
#278=CARTESIAN_POINT('',(4.5,-5.43183904595549,25.805490028417));
#279=CARTESIAN_POINT('',(4.5,-10.130302149885,24.0953893117886));
#280=CARTESIAN_POINT('',(4.5,-8.42020143325669,19.3969262078591));
#281=CARTESIAN_POINT('Origin',(4.5,-3.72173832932715,21.1070269244874));
#282=CARTESIAN_POINT('',(4.5,-5.,10.));
#283=CARTESIAN_POINT('',(4.5,-5.,10.));
#284=CARTESIAN_POINT('',(4.5,-5.,10.));
#285=CARTESIAN_POINT('Origin',(0.,-5.55111512312578E-16,-5.));
#286=CARTESIAN_POINT('',(-4.5,-5.,-5.));
#287=CARTESIAN_POINT('',(0.,-5.,-5.));
#288=CARTESIAN_POINT('',(-4.5,5.,-5.));
#289=CARTESIAN_POINT('Origin',(-4.5,-3.05311331771918E-15,-5.));
#290=CARTESIAN_POINT('',(0.,5.,-5.));
#291=CARTESIAN_POINT('Origin',(0.,5.,-10.));
#292=CARTESIAN_POINT('',(-4.5,5.,13.639702342662));
#293=CARTESIAN_POINT('',(-4.5,5.,10.));
#294=CARTESIAN_POINT('',(2.25,5.00000000000001,13.639702342662));
#295=CARTESIAN_POINT('Origin',(-4.5,-1.11022302462516E-15,-2.22044604925031E-15));
#296=CARTESIAN_POINT('',(-4.5,-5.,10.));
#297=CARTESIAN_POINT('',(-4.5,-5.,10.));
#298=CARTESIAN_POINT('',(-4.5,-8.42020143325669,19.3969262078591));
#299=CARTESIAN_POINT('',(-4.5,-4.99999999999999,10.));
#300=CARTESIAN_POINT('',(-4.5,-5.43183904595549,25.805490028417));
#301=CARTESIAN_POINT('Origin',(-4.5,-3.72173832932714,21.1070269244874));
#302=CARTESIAN_POINT('',(-4.5,-4.82876525381457,26.0249909378223));
#303=CARTESIAN_POINT('',(-4.5,-0.13030214988503,27.7350916544506));
#304=CARTESIAN_POINT('',(-4.5,1.57979856674331,23.0366285505211));
#305=CARTESIAN_POINT('Origin',(-4.5,-3.11866453718623,21.3265278338928));
#306=CARTESIAN_POINT('',(-4.5,5.00000000000001,13.639702342662));
#307=CARTESIAN_POINT('Origin',(-2.25,-3.72173832932714,21.1070269244874));
#308=CARTESIAN_POINT('',(-2.25,-5.43183904595549,25.805490028417));
#309=CARTESIAN_POINT('',(-2.25,-8.42020143325669,19.3969262078591));
#310=CARTESIAN_POINT('Origin',(0.,-5.13030214988503,25.9152404831196));
#311=CARTESIAN_POINT('',(2.25,-4.82876525381457,26.0249909378223));
#312=CARTESIAN_POINT('Origin',(2.25,-3.11866453718623,21.3265278338928));
#313=CARTESIAN_POINT('',(2.25,1.57979856674331,23.0366285505211));
#314=CARTESIAN_POINT('Origin',(-4.5,-4.99999999999999,10.));
#315=CARTESIAN_POINT('',(0.,-5.,10.));
#316=CARTESIAN_POINT('Origin',(4.5,5.00000000000001,13.639702342662));
#317=CARTESIAN_POINT('Origin',(0.,-5.,10.));
#318=UNCERTAINTY_MEASURE_WITH_UNIT(LENGTH_MEASURE(0.01),#322,
'DISTANCE_ACCURACY_VALUE',
'Maximum model space distance between geometric entities at asserted c
onnectivities');
#319=UNCERTAINTY_MEASURE_WITH_UNIT(LENGTH_MEASURE(0.01),#322,
'DISTANCE_ACCURACY_VALUE',
'Maximum model space distance between geometric entities at asserted c
onnectivities');
#320=(
GEOMETRIC_REPRESENTATION_CONTEXT(3)
GLOBAL_UNCERTAINTY_ASSIGNED_CONTEXT((#318))
GLOBAL_UNIT_ASSIGNED_CONTEXT((#322,#325,#324))
REPRESENTATION_CONTEXT('','3D')
);
#321=(
GEOMETRIC_REPRESENTATION_CONTEXT(3)
GLOBAL_UNCERTAINTY_ASSIGNED_CONTEXT((#319))
GLOBAL_UNIT_ASSIGNED_CONTEXT((#322,#325,#324))
REPRESENTATION_CONTEXT('','3D')
);
#322=(
LENGTH_UNIT()
NAMED_UNIT(*)
SI_UNIT(.MILLI.,.METRE.)
);
#323=(
LENGTH_UNIT()
NAMED_UNIT(*)
SI_UNIT($,.METRE.)
);
#324=(
NAMED_UNIT(*)
SI_UNIT($,.STERADIAN.)
SOLID_ANGLE_UNIT()
);
#325=(
NAMED_UNIT(*)
PLANE_ANGLE_UNIT()
SI_UNIT($,.RADIAN.)
);
#326=SHAPE_DEFINITION_REPRESENTATION(#327,#328);
#327=PRODUCT_DEFINITION_SHAPE('',$,#330);
#328=SHAPE_REPRESENTATION('',(#198),#320);
#329=PRODUCT_DEFINITION_CONTEXT('part definition',#334,'design');
#330=PRODUCT_DEFINITION('Finger','Finger',#331,#329);
#331=PRODUCT_DEFINITION_FORMATION('',$,#336);
#332=PRODUCT_RELATED_PRODUCT_CATEGORY('Finger','Finger',(#336));
#333=APPLICATION_PROTOCOL_DEFINITION('international standard',
'automotive_design',2009,#334);
#334=APPLICATION_CONTEXT(
'Core Data for Automotive Mechanical Design Process');
#335=PRODUCT_CONTEXT('part definition',#334,'mechanical');
#336=PRODUCT('Finger','Finger',$,(#335));
#337=PRESENTATION_STYLE_ASSIGNMENT((#338));
#338=SURFACE_STYLE_USAGE(.BOTH.,#339);
#339=SURFACE_SIDE_STYLE('',(#340));
#340=SURFACE_STYLE_FILL_AREA(#341);
#341=FILL_AREA_STYLE('Steel - Satin',(#342));
#342=FILL_AREA_STYLE_COLOUR('Steel - Satin',#343);
#343=COLOUR_RGB('Steel - Satin',0.627450980392157,0.627450980392157,0.627450980392157);
ENDSEC;
END-ISO-10303-21;
